The Dust ForumsHere you can view your subscribed threads, work with private messages and edit your profile and preferencesRegistration is free!CalendarFind other membersFrequently Asked QuestionsSearchHome  
The Dust Forums : Powered by vBulletin version 2.2.9 The Dust Forums > Chris Whitley Tunings > Livin with the law tab
  Last Thread   Next Thread
Author
Thread Post New Thread    Post A Reply
ATC
Living With The Law

Registered: Aug 2005
Location: Yorkville Ill
Posts: 46

Livin with the law tab

Most probably know this but here it is for those who don't.

Attachment: livin with the law.bmp
This has been downloaded 4399 time(s).

Report this post to a moderator | IP: Logged

Old Post 01-24-2006 02:40 AM
ATC is offline Click Here to See the Profile for ATC Click here to Send ATC a Private Message Find more posts by ATC Add ATC to your buddy list Edit/Delete Message Reply w/Quote
cochise
Living With The Law

Registered: Dec 2005
Location: arlington, tx
Posts: 33

lwtl

ear not as tin as you would have me believe. thank you very much for these. enjoy the playing

Report this post to a moderator | IP: Logged

Old Post 01-24-2006 08:00 AM
cochise is offline Click Here to See the Profile for cochise Click here to Send cochise a Private Message Find more posts by cochise Add cochise to your buddy list Edit/Delete Message Reply w/Quote
ATC
Living With The Law

Registered: Aug 2005
Location: Yorkville Ill
Posts: 46

Tin ear

I can do it but it takes a long time to figure out for me.
With three youngsters (6,6 and 5yrs) I don't have much free time until they are in bed.By then I am wiped out.lol

Ken

Report this post to a moderator | IP: Logged

Old Post 01-24-2006 04:46 PM
ATC is offline Click Here to See the Profile for ATC Click here to Send ATC a Private Message Find more posts by ATC Add ATC to your buddy list Edit/Delete Message Reply w/Quote
Irish_Bog
Living With The Law

Registered: Nov 2005
Location: Stockholm
Posts: 69

Thanks Big Time

Hi

Just want to say how much I appreciate the work you're doing tabing these.

If I can some time I'll transpose it over to a .txt file so that
it can be distributed easier...... with your permission of course !


thanks again...... when I saw the Accordingly tab, I couldn't wait
to get home to play it !!!!

Report this post to a moderator | IP: Logged

Old Post 01-26-2006 01:02 PM
Irish_Bog is offline Click Here to See the Profile for Irish_Bog Click here to Send Irish_Bog a Private Message Find more posts by Irish_Bog Add Irish_Bog to your buddy list Edit/Delete Message Reply w/Quote
ATC
Living With The Law

Registered: Aug 2005
Location: Yorkville Ill
Posts: 46

lwtl tab

Have at it. I would but I don't know how.
It took me a long time ti figure out how to attach them to the post.lol

Ken

Report this post to a moderator | IP: Logged

Old Post 01-26-2006 04:44 PM
ATC is offline Click Here to See the Profile for ATC Click here to Send ATC a Private Message Find more posts by ATC Add ATC to your buddy list Edit/Delete Message Reply w/Quote
Irish_Bog
Living With The Law

Registered: Nov 2005
Location: Stockholm
Posts: 69



Hi ATC, if you have time please check. I could have inserted the
open strings instead of leaving the comment there.
Did you mean to have all the other strings open or should some
not be played?

-------------------------------------------------------------------------------
Living With The Law - Chris Whitley
-------------------------------------------------------------------------------
Tabbed by: ATC (transcribed from image on the Dust Forums site)
Email:

Tuning: DADADE
Intro and verses ________________________ with open strings
e|-------------------------------------|------------------------------0------|
D|--2-----2-/-4----0-------------------|------------------------------7---0--|
A|*-0-----0----------0---0-0-0--2-/-5--|---7-/-9---5---7-/-9---/ 12---0---4--|
D|*-2-----2-/-4----0-------------------|------------------------------7---0--|
A|--0-----0----------0---0-0-0--2-/-5--|---7-/-9---5---7-/-9---/ 12---0---4--|
D|--0-----0-------------------------0--|-------------------------------------|



e|-------------------------------|-------------|-----------------------------|
D|-------------------------------|-------------|---2-/-4---4-\-2--0----------|
A|------------0-0----------------|----2--0-----|-----------------------------|
D|-----0-0--------4-4-2---0-0----|--5-5--5-----|---2-/-4---4-\-2--0----------|
A|-----4----------------------0--|--5-5--5-----|-----------------------------|
D|-0-0------------------0--------|-------------|-----------------------------|
_________________________________________________w
ith open strings


e|---------------------|-----------------------------------------------------|
D|---------0-----------|-----------------------------------------------------|
A|--0-/-2-----2-/-5---*|-----------------------------------------------------|
D|---------0----------*|-----------------------------------------------------|
A|--0-/-2-----2-/-5----|-----------------------------------------------------|
D|---------------------|-----------------------------------------------------|


bridge
e|---0------|----------|------|-------|---------------|----------------------|
D|---0------|----------|------|-------|---------------|----------------------|
A|'--3---5--|--0------*|--5---|-------|--0-------2--0-|----0-----------------|
D|'--5---5--|--0------*|--5---|--5----|--0------------|----0-----------------|
A|---3---5--|--0-------|--3---|--5----|--0-------2--0-|----0-----------------|
D|-------5--|--0-------|------|--5----|--0------------|----0-----------------|


to intro / verses
e|---------------||--0--------------||--------------------------------------||
D|---------------||--0--------------||--------------------------------------||
A|---------------||--5--3--2--0-----||*----7----7-/-9-\-7----5-------------*||
D|---------------||--0--------------||*------------------------------------*||
A|---------------||--5--3--2--0-----||-----7----7-/-9-\-7----5--------------||
D|---------------||-----------------||--(5)---------------------------------||
__________________________________________ with open strings

_______1. ----------------->|_____ 2. -------------------------------->
e|----------------------------||---------------------------------------------|
D|----------------------------||-------------------------10--12--------------|
A|--7-/-10----9--7--5--2--0--*||*---10-/-12-----10---12--12--12--10--9-------|
D|---------------------------*||*--------------------------------------------|
A|--7-/-10----9--7--5--2--0---||----10-/-12-----10---12--12--12--10--9-------|
D|----------------------------||---------------------------------------------|


-------->|
e|---------||----------------------------------------------------------------|
D|---------||--0-------------------------------------------------------------|
A|--5--3--*||--5-------------------------------------------------------------|
D|--------*||--0-------------------------------------------------------------|
A|--5--3---||--5-------------------------------------------------------------|
D|---------||--0-------------------------------------------------------------|


| / slide up
| \ slide down
| h hammer-on
| p pull-off
| ~ vibrato
| + harmonic
| x Mute note
==================================================
=============================


Report this post to a moderator | IP: Logged

Old Post 02-01-2006 03:06 PM
Irish_Bog is offline Click Here to See the Profile for Irish_Bog Click here to Send Irish_Bog a Private Message Find more posts by Irish_Bog Add Irish_Bog to your buddy list Edit/Delete Message Reply w/Quote
ATC
Living With The Law

Registered: Aug 2005
Location: Yorkville Ill
Posts: 46

Open Strings

The high 2 strings(DE) are open most of the time it is pretty easy to hear on the record.

Report this post to a moderator | IP: Logged

Old Post 02-02-2006 04:02 PM
ATC is offline Click Here to See the Profile for ATC Click here to Send ATC a Private Message Find more posts by ATC Add ATC to your buddy list Edit/Delete Message Reply w/Quote
pluto
Dust Radio

Registered: Apr 2008
Location:
Posts: 5

Nice work fellas. Thank you.

__________________
http://dcguitar.com
http://myspace.com/plutosrepublic

Report this post to a moderator | IP: Logged

Old Post 04-18-2008 05:30 AM
pluto is offline Click Here to See the Profile for pluto Click here to Send pluto a Private Message Visit pluto's homepage! Find more posts by pluto Add pluto to your buddy list Edit/Delete Message Reply w/Quote
All times are GMT. The time now is 03:03 PM. Post New Thread    Post A Reply
  Last Thread   Next Thread
Show Printable Version | Email this Page | Subscribe to this Thread

Forum Jump:
Rate This Thread:

Forum Rules:
You may not post new threads
You may not post replies
You may not post attachments
You may not edit your posts
HTML code is OFF
vB code is ON
Smilies are ON
[IMG] code is ON
 

< Contact Us - Mortalmusic >

Powered by: vBulletin Version 2.2.9
Copyright ©2000, 2001, Jelsoft Enterprises Limited.